ISO-10303-21;
HEADER;
/* Generated by software containing ST-Developer
 * from STEP Tools, Inc. (www.steptools.com) 
 */
/* OPTION: using custom schema-name function */

FILE_DESCRIPTION(
/* description */ (''),
/* implementation_level */ '2;1');

FILE_NAME(
/* name */ 'WOX 8-6 Kundenmodell.stp',
/* time_stamp */ '2015-10-19T11:49:10+02:00',
/* author */ (''),
/* organization */ (''),
/* preprocessor_version */ 'ST-DEVELOPER v15',
/* originating_system */ 'SIEMENS PLM Software NX 9.0',
/* authorisation */ '');

FILE_SCHEMA (('AUTOMOTIVE_DESIGN { 1 0 10303 214 3 1 1 1 }'));
ENDSEC;

DATA;
#10=PROPERTY_DEFINITION_REPRESENTATION(#14,#12);
#11=PROPERTY_DEFINITION_REPRESENTATION(#15,#13);
#12=REPRESENTATION('',(#16),#320);
#13=REPRESENTATION('',(#17),#320);
#14=PROPERTY_DEFINITION('pmi validation property','',#21);
#15=PROPERTY_DEFINITION('pmi validation property','',#21);
#16=VALUE_REPRESENTATION_ITEM('number of annotations',COUNT_MEASURE(0.));
#17=VALUE_REPRESENTATION_ITEM('number of views',COUNT_MEASURE(0.));
#18=SHAPE_REPRESENTATION_RELATIONSHIP('None',
'relationship between zer189C0F9Fgeah-None and zer189C0F9Fgeah-None',#30,
#19);
#19=ADVANCED_BREP_SHAPE_REPRESENTATION('zer189C0F9Fgeah-None',(#69,#70,
#71),#320);
#20=SHAPE_DEFINITION_REPRESENTATION(#21,#30);
#21=PRODUCT_DEFINITION_SHAPE('','',#22);
#22=PRODUCT_DEFINITION(' ','',#24,#23);
#23=PRODUCT_DEFINITION_CONTEXT('part definition',#29,'design');
#24=PRODUCT_DEFINITION_FORMATION_WITH_SPECIFIED_SOURCE(' ',' ',#26,
 .NOT_KNOWN.);
#25=PRODUCT_RELATED_PRODUCT_CATEGORY('part','',(#26));
#26=PRODUCT('zer189C0F9Fgeah','zer189C0F9Fgeah',' ',(#27));
#27=PRODUCT_CONTEXT(' ',#29,'mechanical');
#28=APPLICATION_PROTOCOL_DEFINITION('international standard',
'automotive_design',2010,#29);
#29=APPLICATION_CONTEXT(
'core data for automotive mechanical design processes');
#30=SHAPE_REPRESENTATION('zer189C0F9Fgeah-None',(#207),#320);
#31=OVER_RIDING_STYLED_ITEM('',(#39),#86,#35);
#32=OVER_RIDING_STYLED_ITEM('',(#41),#91,#36);
#33=PRESENTATION_LAYER_ASSIGNMENT('90','Layer 90',(#69,#70,#71));
#34=STYLED_ITEM('',(#37),#69);
#35=STYLED_ITEM('',(#38),#70);
#36=STYLED_ITEM('',(#40),#71);
#37=PRESENTATION_STYLE_ASSIGNMENT((#42));
#38=PRESENTATION_STYLE_ASSIGNMENT((#43));
#39=PRESENTATION_STYLE_ASSIGNMENT((#44));
#40=PRESENTATION_STYLE_ASSIGNMENT((#45));
#41=PRESENTATION_STYLE_ASSIGNMENT((#46));
#42=SURFACE_STYLE_USAGE(.BOTH.,#47);
#43=SURFACE_STYLE_USAGE(.BOTH.,#48);
#44=SURFACE_STYLE_USAGE(.BOTH.,#49);
#45=SURFACE_STYLE_USAGE(.BOTH.,#50);
#46=SURFACE_STYLE_USAGE(.BOTH.,#51);
#47=SURFACE_SIDE_STYLE('',(#52));
#48=SURFACE_SIDE_STYLE('',(#53));
#49=SURFACE_SIDE_STYLE('',(#54));
#50=SURFACE_SIDE_STYLE('',(#55));
#51=SURFACE_SIDE_STYLE('',(#56));
#52=SURFACE_STYLE_FILL_AREA(#57);
#53=SURFACE_STYLE_FILL_AREA(#58);
#54=SURFACE_STYLE_FILL_AREA(#59);
#55=SURFACE_STYLE_FILL_AREA(#60);
#56=SURFACE_STYLE_FILL_AREA(#61);
#57=FILL_AREA_STYLE('',(#62));
#58=FILL_AREA_STYLE('',(#63));
#59=FILL_AREA_STYLE('',(#64));
#60=FILL_AREA_STYLE('',(#65));
#61=FILL_AREA_STYLE('',(#66));
#62=FILL_AREA_STYLE_COLOUR('',#67);
#63=FILL_AREA_STYLE_COLOUR('',#67);
#64=FILL_AREA_STYLE_COLOUR('',#68);
#65=FILL_AREA_STYLE_COLOUR('',#67);
#66=FILL_AREA_STYLE_COLOUR('',#68);
#67=COLOUR_RGB('Silver Gray',0.6,0.6,0.6);
#68=COLOUR_RGB('Granite Gray',0.4,0.4,0.4);
#69=MANIFOLD_SOLID_BREP('',#72);
#70=MANIFOLD_SOLID_BREP('',#73);
#71=MANIFOLD_SOLID_BREP('',#74);
#72=CLOSED_SHELL('',(#81,#82,#83,#84));
#73=CLOSED_SHELL('',(#85,#86,#87,#88));
#74=CLOSED_SHELL('',(#89,#90,#91,#92));
#75=TOROIDAL_SURFACE('',#212,10.3,4.);
#76=TOROIDAL_SURFACE('',#215,10.3,4.);
#77=TOROIDAL_SURFACE('',#220,10.3,4.);
#78=TOROIDAL_SURFACE('',#223,10.3,4.);
#79=TOROIDAL_SURFACE('',#226,10.3,4.);
#80=TOROIDAL_SURFACE('',#230,10.3,4.);
#81=ADVANCED_FACE('',(#99,#100),#93,.T.);
#82=ADVANCED_FACE('',(#101,#102),#75,.T.);
#83=ADVANCED_FACE('',(#103,#104),#94,.T.);
#84=ADVANCED_FACE('',(#105,#106),#76,.T.);
#85=ADVANCED_FACE('',(#107,#108),#95,.T.);
#86=ADVANCED_FACE('',(#109,#110),#77,.T.);
#87=ADVANCED_FACE('',(#111,#112),#96,.T.);
#88=ADVANCED_FACE('',(#113,#114),#78,.T.);
#89=ADVANCED_FACE('',(#115,#116),#79,.T.);
#90=ADVANCED_FACE('',(#117,#118),#97,.T.);
#91=ADVANCED_FACE('',(#119,#120),#80,.T.);
#92=ADVANCED_FACE('',(#121,#122),#98,.T.);
#93=CYLINDRICAL_SURFACE('',#210,4.);
#94=CYLINDRICAL_SURFACE('',#214,4.);
#95=CYLINDRICAL_SURFACE('',#218,4.);
#96=CYLINDRICAL_SURFACE('',#222,4.);
#97=CYLINDRICAL_SURFACE('',#228,4.);
#98=CYLINDRICAL_SURFACE('',#231,4.);
#99=FACE_BOUND('',#123,.T.);
#100=FACE_BOUND('',#124,.T.);
#101=FACE_BOUND('',#125,.T.);
#102=FACE_BOUND('',#126,.T.);
#103=FACE_BOUND('',#127,.T.);
#104=FACE_BOUND('',#128,.T.);
#105=FACE_BOUND('',#129,.T.);
#106=FACE_BOUND('',#130,.T.);
#107=FACE_BOUND('',#131,.T.);
#108=FACE_BOUND('',#132,.T.);
#109=FACE_BOUND('',#133,.T.);
#110=FACE_BOUND('',#134,.T.);
#111=FACE_BOUND('',#135,.T.);
#112=FACE_BOUND('',#136,.T.);
#113=FACE_BOUND('',#137,.T.);
#114=FACE_BOUND('',#138,.T.);
#115=FACE_BOUND('',#139,.T.);
#116=FACE_BOUND('',#140,.T.);
#117=FACE_BOUND('',#141,.T.);
#118=FACE_BOUND('',#142,.T.);
#119=FACE_BOUND('',#143,.T.);
#120=FACE_BOUND('',#144,.T.);
#121=FACE_BOUND('',#145,.T.);
#122=FACE_BOUND('',#146,.T.);
#123=EDGE_LOOP('',(#147));
#124=EDGE_LOOP('',(#148));
#125=EDGE_LOOP('',(#149));
#126=EDGE_LOOP('',(#150));
#127=EDGE_LOOP('',(#151));
#128=EDGE_LOOP('',(#152));
#129=EDGE_LOOP('',(#153));
#130=EDGE_LOOP('',(#154));
#131=EDGE_LOOP('',(#155));
#132=EDGE_LOOP('',(#156));
#133=EDGE_LOOP('',(#157));
#134=EDGE_LOOP('',(#158));
#135=EDGE_LOOP('',(#159));
#136=EDGE_LOOP('',(#160));
#137=EDGE_LOOP('',(#161));
#138=EDGE_LOOP('',(#162));
#139=EDGE_LOOP('',(#163));
#140=EDGE_LOOP('',(#164));
#141=EDGE_LOOP('',(#165));
#142=EDGE_LOOP('',(#166));
#143=EDGE_LOOP('',(#167));
#144=EDGE_LOOP('',(#168));
#145=EDGE_LOOP('',(#169));
#146=EDGE_LOOP('',(#170));
#147=ORIENTED_EDGE('',*,*,#183,.T.);
#148=ORIENTED_EDGE('',*,*,#184,.F.);
#149=ORIENTED_EDGE('',*,*,#185,.T.);
#150=ORIENTED_EDGE('',*,*,#183,.F.);
#151=ORIENTED_EDGE('',*,*,#186,.T.);
#152=ORIENTED_EDGE('',*,*,#185,.F.);
#153=ORIENTED_EDGE('',*,*,#186,.F.);
#154=ORIENTED_EDGE('',*,*,#184,.T.);
#155=ORIENTED_EDGE('',*,*,#187,.T.);
#156=ORIENTED_EDGE('',*,*,#188,.F.);
#157=ORIENTED_EDGE('',*,*,#189,.T.);
#158=ORIENTED_EDGE('',*,*,#187,.F.);
#159=ORIENTED_EDGE('',*,*,#190,.T.);
#160=ORIENTED_EDGE('',*,*,#189,.F.);
#161=ORIENTED_EDGE('',*,*,#190,.F.);
#162=ORIENTED_EDGE('',*,*,#188,.T.);
#163=ORIENTED_EDGE('',*,*,#191,.T.);
#164=ORIENTED_EDGE('',*,*,#192,.F.);
#165=ORIENTED_EDGE('',*,*,#193,.T.);
#166=ORIENTED_EDGE('',*,*,#191,.F.);
#167=ORIENTED_EDGE('',*,*,#193,.F.);
#168=ORIENTED_EDGE('',*,*,#194,.T.);
#169=ORIENTED_EDGE('',*,*,#194,.F.);
#170=ORIENTED_EDGE('',*,*,#192,.T.);
#171=VERTEX_POINT('',#284);
#172=VERTEX_POINT('',#286);
#173=VERTEX_POINT('',#289);
#174=VERTEX_POINT('',#292);
#175=VERTEX_POINT('',#296);
#176=VERTEX_POINT('',#298);
#177=VERTEX_POINT('',#301);
#178=VERTEX_POINT('',#304);
#179=VERTEX_POINT('',#308);
#180=VERTEX_POINT('',#310);
#181=VERTEX_POINT('',#313);
#182=VERTEX_POINT('',#316);
#183=EDGE_CURVE('',#171,#171,#195,.T.);
#184=EDGE_CURVE('',#172,#172,#196,.T.);
#185=EDGE_CURVE('',#173,#173,#197,.T.);
#186=EDGE_CURVE('',#174,#174,#198,.T.);
#187=EDGE_CURVE('',#175,#175,#199,.T.);
#188=EDGE_CURVE('',#176,#176,#200,.T.);
#189=EDGE_CURVE('',#177,#177,#201,.T.);
#190=EDGE_CURVE('',#178,#178,#202,.T.);
#191=EDGE_CURVE('',#179,#179,#203,.T.);
#192=EDGE_CURVE('',#180,#180,#204,.T.);
#193=EDGE_CURVE('',#181,#181,#205,.T.);
#194=EDGE_CURVE('',#182,#182,#206,.T.);
#195=CIRCLE('',#208,4.);
#196=CIRCLE('',#209,4.);
#197=CIRCLE('',#211,4.);
#198=CIRCLE('',#213,4.);
#199=CIRCLE('',#216,4.);
#200=CIRCLE('',#217,4.);
#201=CIRCLE('',#219,4.);
#202=CIRCLE('',#221,4.);
#203=CIRCLE('',#224,4.);
#204=CIRCLE('',#225,4.);
#205=CIRCLE('',#227,4.);
#206=CIRCLE('',#229,4.);
#207=AXIS2_PLACEMENT_3D('',#282,#232,#233);
#208=AXIS2_PLACEMENT_3D('',#283,#234,#235);
#209=AXIS2_PLACEMENT_3D('',#285,#236,#237);
#210=AXIS2_PLACEMENT_3D('',#287,#238,#239);
#211=AXIS2_PLACEMENT_3D('',#288,#240,#241);
#212=AXIS2_PLACEMENT_3D('',#290,#242,#243);
#213=AXIS2_PLACEMENT_3D('',#291,#244,#245);
#214=AXIS2_PLACEMENT_3D('',#293,#246,#247);
#215=AXIS2_PLACEMENT_3D('',#294,#248,#249);
#216=AXIS2_PLACEMENT_3D('',#295,#250,#251);
#217=AXIS2_PLACEMENT_3D('',#297,#252,#253);
#218=AXIS2_PLACEMENT_3D('',#299,#254,#255);
#219=AXIS2_PLACEMENT_3D('',#300,#256,#257);
#220=AXIS2_PLACEMENT_3D('',#302,#258,#259);
#221=AXIS2_PLACEMENT_3D('',#303,#260,#261);
#222=AXIS2_PLACEMENT_3D('',#305,#262,#263);
#223=AXIS2_PLACEMENT_3D('',#306,#264,#265);
#224=AXIS2_PLACEMENT_3D('',#307,#266,#267);
#225=AXIS2_PLACEMENT_3D('',#309,#268,#269);
#226=AXIS2_PLACEMENT_3D('',#311,#270,#271);
#227=AXIS2_PLACEMENT_3D('',#312,#272,#273);
#228=AXIS2_PLACEMENT_3D('',#314,#274,#275);
#229=AXIS2_PLACEMENT_3D('',#315,#276,#277);
#230=AXIS2_PLACEMENT_3D('',#317,#278,#279);
#231=AXIS2_PLACEMENT_3D('',#318,#280,#281);
#232=DIRECTION('',(0.,0.,1.));
#233=DIRECTION('',(1.,0.,0.));
#234=DIRECTION('',(-1.,-6.9900154884288E-016,0.));
#235=DIRECTION('',(6.50521303491303E-016,-1.,0.));
#236=DIRECTION('',(-1.,-6.9900154884288E-016,0.));
#237=DIRECTION('',(6.50521303491303E-016,-1.,0.));
#238=DIRECTION('',(-1.,0.,0.));
#239=DIRECTION('',(0.,0.,1.));
#240=DIRECTION('',(1.,-3.1164155077198E-016,0.));
#241=DIRECTION('',(2.16840434497101E-016,1.,0.));
#242=DIRECTION('',(0.,0.,-1.));
#243=DIRECTION('',(-1.,0.,0.));
#244=DIRECTION('',(1.,-3.1164155077198E-016,0.));
#245=DIRECTION('',(2.16840434497101E-016,1.,0.));
#246=DIRECTION('',(-1.,3.1164155077198E-016,0.));
#247=DIRECTION('',(-3.1164155077198E-016,-1.,0.));
#248=DIRECTION('',(0.,0.,1.));
#249=DIRECTION('',(1.,0.,0.));
#250=DIRECTION('',(-1.,-2.77555756156288E-017,-2.4235484325056E-015));
#251=DIRECTION('',(-2.60208521396521E-015,0.,1.));
#252=DIRECTION('',(-1.,-2.77555756156289E-017,-4.02262233275876E-016));
#253=DIRECTION('',(0.,0.,1.));
#254=DIRECTION('',(-1.,5.38881804676281E-015,0.));
#255=DIRECTION('',(-5.20417042793042E-015,-1.,0.));
#256=DIRECTION('',(1.,2.77555756156289E-017,9.68816123040674E-016));
#257=DIRECTION('',(8.67361737988404E-016,1.22460635382239E-016,-1.));
#258=DIRECTION('',(-2.77555756156289E-017,1.,6.12303176911189E-017));
#259=DIRECTION('',(0.,-6.12303176911196E-017,1.));
#260=DIRECTION('',(1.,2.77555756156289E-017,9.68816123040674E-016));
#261=DIRECTION('',(8.67361737988404E-016,1.22460635382239E-016,-1.));
#262=DIRECTION('',(1.,3.76550642518697E-016,0.));
#263=DIRECTION('',(0.,1.,0.));
#264=DIRECTION('',(2.77555756156289E-017,-1.,-6.12303176911189E-017));
#265=DIRECTION('',(0.,6.12303176911196E-017,-1.));
#266=DIRECTION('',(1.,0.,-1.07187543957223E-015));
#267=DIRECTION('',(-8.67361737988404E-016,0.,-1.));
#268=DIRECTION('',(-1.,0.,2.08251853918709E-015));
#269=DIRECTION('',(1.73472347597681E-015,0.,1.));
#270=DIRECTION('',(0.,-1.,0.));
#271=DIRECTION('',(0.,0.,-1.));
#272=DIRECTION('',(1.,0.,-1.07187543957223E-015));
#273=DIRECTION('',(-8.67361737988404E-016,0.,-1.));
#274=DIRECTION('',(1.,9.73149436277795E-017,1.24656620308789E-015));
#275=DIRECTION('',(8.67361737988404E-016,0.,-1.));
#276=DIRECTION('',(-1.,0.,6.12323399573677E-017));
#277=DIRECTION('',(0.,0.,1.));
#278=DIRECTION('',(0.,1.,0.));
#279=DIRECTION('',(0.,0.,1.));
#280=DIRECTION('',(1.,1.61656750364115E-015,1.55820775385987E-016));
#281=DIRECTION('',(-1.73472347597681E-015,1.,0.));
#282=CARTESIAN_POINT('',(0.,0.,0.));
#283=CARTESIAN_POINT('',(5.69999999999989,-10.3,0.));
#284=CARTESIAN_POINT('',(5.69999999999989,-14.3,0.));
#285=CARTESIAN_POINT('',(-5.69999999999987,-10.3,0.));
#286=CARTESIAN_POINT('',(-5.69999999999987,-14.3,0.));
#287=CARTESIAN_POINT('',(5.69999999999989,-10.3,0.));
#288=CARTESIAN_POINT('',(5.69999999999988,10.3,0.));
#289=CARTESIAN_POINT('',(5.69999999999988,14.3,0.));
#290=CARTESIAN_POINT('',(5.69999999999988,0.,0.));
#291=CARTESIAN_POINT('',(-5.69999999999988,10.3,0.));
#292=CARTESIAN_POINT('',(-5.69999999999988,14.3,0.));
#293=CARTESIAN_POINT('',(8.67361737988404E-016,10.3,0.));
#294=CARTESIAN_POINT('',(-5.69999999999988,0.,0.));
#295=CARTESIAN_POINT('',(29.7,2.28682205335804E-013,-10.3000000000001));
#296=CARTESIAN_POINT('',(29.7,2.28682205335804E-013,-6.30000000000007));
#297=CARTESIAN_POINT('',(18.2999999999999,2.24389528011091E-013,-10.3000000000001));
#298=CARTESIAN_POINT('',(18.2999999999999,2.24389528011091E-013,-6.30000000000007));
#299=CARTESIAN_POINT('',(29.7,2.28682205335804E-013,-10.3000000000001));
#300=CARTESIAN_POINT('',(29.6999999999999,2.27420860791367E-013,10.2999999999999));
#301=CARTESIAN_POINT('',(29.6999999999999,2.27910703332896E-013,6.29999999999992));
#302=CARTESIAN_POINT('',(29.6999999999999,2.28051533063586E-013,-7.45931094670027E-014));
#303=CARTESIAN_POINT('',(18.2999999999999,2.23128183466654E-013,10.2999999999999));
#304=CARTESIAN_POINT('',(18.2999999999999,2.23618026008183E-013,6.29999999999992));
#305=CARTESIAN_POINT('',(18.2999999999999,2.23128183466654E-013,10.2999999999999));
#306=CARTESIAN_POINT('',(18.2999999999999,2.23758855738873E-013,-7.45931094670027E-014));
#307=CARTESIAN_POINT('',(-18.2999999999999,3.7625670253249E-014,-10.3));
#308=CARTESIAN_POINT('',(-18.2999999999999,3.7625670253249E-014,-14.3));
#309=CARTESIAN_POINT('',(-18.2999999999999,3.7625670253249E-014,10.3));
#310=CARTESIAN_POINT('',(-18.2999999999999,3.7625670253249E-014,14.3));
#311=CARTESIAN_POINT('',(-18.2999999999999,3.7625670253249E-014,0.));
#312=CARTESIAN_POINT('',(-29.6999999999999,4.9859459965378E-015,-10.3));
#313=CARTESIAN_POINT('',(-29.7,4.9859459965378E-015,-14.3));
#314=CARTESIAN_POINT('',(-29.6999999999999,4.9859459965378E-015,-10.3));
#315=CARTESIAN_POINT('',(-29.6999999999999,4.9859459965378E-015,10.3));
#316=CARTESIAN_POINT('',(-29.6999999999999,4.9859459965378E-015,14.3));
#317=CARTESIAN_POINT('',(-29.6999999999999,4.9859459965378E-015,1.73472347597681E-015));
#318=CARTESIAN_POINT('',(-29.6999999999999,1.91968007117398E-014,10.3));
#319=MECHANICAL_DESIGN_GEOMETRIC_PRESENTATION_REPRESENTATION('',(#34,#35,
#31,#36,#32),#320);
#320=(
GEOMETRIC_REPRESENTATION_CONTEXT(3)
GLOBAL_UNCERTAINTY_ASSIGNED_CONTEXT((#321))
GLOBAL_UNIT_ASSIGNED_CONTEXT((#327,#323,#322))
REPRESENTATION_CONTEXT('WOX 8-6 Kundenmodell','TOP_LEVEL_ASSEMBLY_PART')
);
#321=UNCERTAINTY_MEASURE_WITH_UNIT(LENGTH_MEASURE(2.E-005),#327,
'DISTANCE_ACCURACY_VALUE','Maximum Tolerance applied to model');
#322=(
NAMED_UNIT(*)
SI_UNIT($,.STERADIAN.)
SOLID_ANGLE_UNIT()
);
#323=(
CONVERSION_BASED_UNIT('DEGREE',#325)
NAMED_UNIT(#324)
PLANE_ANGLE_UNIT()
);
#324=DIMENSIONAL_EXPONENTS(0.,0.,0.,0.,0.,0.,0.);
#325=PLANE_ANGLE_MEASURE_WITH_UNIT(PLANE_ANGLE_MEASURE(0.0174532925),#326);
#326=(
NAMED_UNIT(*)
PLANE_ANGLE_UNIT()
SI_UNIT($,.RADIAN.)
);
#327=(
LENGTH_UNIT()
NAMED_UNIT(*)
SI_UNIT(.MILLI.,.METRE.)
);
ENDSEC;
END-ISO-10303-21;
